Song name
# A B C D E F G H I J K L M N O P Q R S T U V W X Y Z

Misc Cartoons - Smurfs Theme tab

Misc Cartoons
Smurfs Theme
Tuning: Standard
Transcribed by Soch Hean

Horn Intro:
|---------------------------------------------5--------|
|------------5--------5-6-8-5-6-8-------5h6h8---8------|
|-5----7---5-----5-------------------------------------|
|--------5-----5---------------------------------------|
|------------------------------------------------------|
|------------------------------------------------------|

Main Theme:
|----8------------------------------8-------------------------------|
|-8----8-10-------8--------------8----8-10--------8-----------------|
|-----------10-7----9----9-7---------------10-7-----9-10------------|
|---------------------10---------------------------------9-10-------|
|-------------------------------------------------------------------|
|-------------------------------------------------------------------| (x2)

|--------------7-8-----------------------------------7-8----8s10--8-7-------|
|-10--10--8-10-----10-8----------8------10--10--8-10-----10-----------10-8--|
|------------------------10-9-10--------------------------------------------|
|---------------------------------------------------------------------------|
|---------------------------------------------------------------------------|
|---------------------------------------------------------------------------|

(Ooh, I hate smurfs!...)
|------------------------------------------------------|
|------------------------------------------------------|
|------------------------------------------------------|
|-5--4-5--4-5--3-----3--2-3--2-3--1--------1-----------|
|--------------------------------------------4---------|
|------------------------------------------------------|

_____________________
|------------------|
|--------9-11-9----|
|-10--11-----------|
|------------------|
|------------------|
|------------------|
_____________________

Theme:
|----9--------------------------------9---------11----------------8-----------9-|
|-9----9-11-------9----------------9----9-11-11-------11----------------9-------|
|-----------11-8-----10----10-8----------------------------11-------------------|
|-----------------------11------------------------------------------------------|
|-------------------------------------------------------------------------------|
|-------------------------------------------------------------------------------| 

Outro:
|-9p8h9p8h9-----|
|---------------|
|---------------|
|---------------|
|---------------|
|---------------|
Tap to rate this tab
# A B C D E F G H I J K L M N O P Q R S T U V W X Y Z