Song name
# A B C D E F G H I J K L M N O P Q R S T U V W X Y Z

Misc Cartoons - Megas Xlr tab

-------------------------------------------------------------------------------
			     Megas XLR - Misc. Cartoons
-------------------------------------------------------------------------------
Tabbed by: Neodudeman
Email: Tam_Sanh@hotmail.com

Tuning: eADGBE

Note: Each Power Chord written once only shows that many beats, it is reccomended you 
with an up and down picking scheme, and hit each beat twice, meaning you should be playing 
of each note.

Intro song can be found at: http://youtube.com/watch?v=YNu6_dxWbNo&search=megas%20xlr%20intro

The Post-Intro song is embedded at different points within the episode. The fullest one 
seen is at the end of Episode 10: TV Dinner.

e|---------------------------------------------------------------------------|
B|---------------------------------------------------------------------------|
G|---------------------------------------------------------------------------|
D|22222222-55555555-77777777-8888-9------------(Drum Roll)-------------------|
A|22222222-55555555-77777777-8888-9------------------------------------------|
E|00000000-33333333-55555555-6666-7------------------------------------------|

e|---------------------------------------------------------------------------|
B|---------------------------------------------------------------------------|
G|---------------------------------------------------------------------------|
D|2222-5555-7777-9999--2222-5555-7777-9999-----------------------------------|
A|2222-5555-7777-9999--2222-5555-7777-9999-----------------------------------|
E|0000-3333-5555-7777--0000-3333-5555-7777-----------------------------------|

e|---------------------------------------------------------------------------|
B|---------------------------------------------------------------------------|
G|---------------------------------------------------------------------------|
D|22222222-55555555-99999999-99999999----------------------------------------|
A|22222222-55555555-99999999-99999999----------------------------------------|
E|00000000-33333333-77777777-77777777----------------------------------------|

Living here in Jersey, fighting villians from afar,

e|---------------------------------------------------------------------------|
B|---------------------------------------------------------------------------|
G|---------------------------------------------------------------------------|
D|22222222-55555555-77777777-99999999----------------------------------------|
A|22222222-55555555-77777777-99999999----------------------------------------|
E|00000000-33333333-55555555-77777777----------------------------------------|

Ya gotta find first gear in your Giant Robot Car!

e|---------------------------------------------------------------------------|
B|---------------------------------------------------------------------------|
G|---------------------------------------------------------------------------|
D|2222-5555-1010-77-9999-----------------------------------------------------|
A|2222-5555-1010-77-9999-----------------------------------------------------|
E|0000-3333--8-8-55-7777-----------------------------------------------------|

  You  Dig   Giant Robots

e|---------------------------------------------------------------------------|
B|---------------------------------------------------------------------------|
G|---------------------------------------------------------------------------|
D|2222-5555-1010-77-9999-----------------------------------------------------|
A|2222-5555-1010-77-9999-----------------------------------------------------|
E|0000-3333--8-8-55-7777-----------------------------------------------------|

   I   Dig   Giant Robots

e|---------------------------------------------------------------------------|
B|---------------------------------------------------------------------------|
G|---------------------------------------------------------------------------|
D|2222-5555-1010-77-9999-----------------------------------------------------|
A|2222-5555-1010-77-9999-----------------------------------------------------|
E|0000-3333--8-8-55-7777-----------------------------------------------------|

   We  Dig   Giant Robots

e|---------------------------------------------------------------------------|
B|---------------------------------------------------------------------------|
G|---------------------------------------------------------------------------|
D|2222-5555-1010-77-88-99----------------------------------------------------|
A|2222-5555-1010-77-88-99----------------------------------------------------|
E|0000-3333--8-8-55-66-77----------------------------------------------------|

 Chicks Dig  Giant Robots

e|---------------------------------------------3---5--7----------------------|
B|--------------10-12--------------or----------------------------------------|
G|---15\12------12-12--------------------------------------------------------|
D|---------------------------------------------------------------------------|
A|----(This part is freakin Hard, because there are 2 guitars, and-----------|
E|-----the second one plays the soloing over top of this rythym.)------------|

Nice

--------------------------

Post-Intro Part

e|---------------------------------------------------------------------------|
B|---------------------------------------------------------------------------|
G|---------------------------------------------------------------------------|
D|4444-9999-8888-6666--4444-9999-8888-6666-----------------------------------|
A|4444-9999-8888-6666--4444-9999-8888-6666-----------------------------------|
E|2222-7777-6666-4444--2222-7777-6666-4444-----------------------------------|

e|---------------------------------------------------------------------------|
B|11--11--11--11--11--11--11-12-11-------------------------------------------|
G|--11--11--11--11--11--11---------11----------------------------------------|
D|---------------------------------------------------------------------------|
A|---------------------------------------------------------------------------|
E|---------------------------------------------------------------------------|

e|---------------------------------------------------------------------------|
B|11--11--11--11--11--11--14-12-11-------------------------------------------|
G|--11--11--11--11--11--11---------11----------------------------------------|
D|---------------------------------------------------------------------------|
A|---------------------------------------------------------------------------|
E|---------------------------------------------------------------------------|


e|---------------------------------------------------------------------------|
B|11--11--11--11--11--11--11-12-11-------------------------------------------|
G|--11--11--11--11--11--11---------11----------------------------------------|
D|---------------------------------------------------------------------------|
A|---------------------------------------------------------------------------|
E|---------------------------------------------------------------------------|

e|---------------------------------------------------------------------------|
B|11--11--11--11--11--11--14-12-11-------------------------------------------|
G|--11--11--11--11--11--11---------11----------------------------------------|
D|---------------------------------------------------------------------------|
A|---------------------------------------------------------------------------|
E|---------------------------------------------------------------------------|

e|---------------------------------------------------------------------------|
B|---------------------------------------------------------------------------|
G|-----10-11-10--13-13-11-11-------------------------------------------------|
D|11-11--------11-----------13-13-9-9-13-13----------------------------------|
A|---------------------------------------------------------------------------|
E|---------------------------------------------------------------------------|

e|---------------------------------------------------------------------------|
B|---------------------------------------------------------------------------|
G|-----10-11-10--13-13-11-11-------------------------------------------------|
D|11-11--------11-----------13-13-9-9----------------------------------------|
A|------------------------------------11-11----------------------------------|
E|---------------------------------------------------------------------------|

e|---------------------------------------------------------------------------|
B|---------------------------------------------------------------------------|
G|-----10-11-10--13-13-11-11-------------------------------------------------|
D|11-11--------11-----------13-13-9-9-13-13----------------------------------|
A|---------------------------------------------------------------------------|
E|---------------------------------------------------------------------------|

e|---------------------------------------------------------------------------|
B|---------------------------------------------------------------------------|
G|-----10-11-10--13-13-11-11-------------------------------------------------|
D|11-11--------11-----------13-13-9-9----------------------------------------|
A|------------------------------------11-11----------------------------------|
E|---------------------------------------------------------------------------|

e|---------------------------------------------------------------------------|
B|---------------------------------------------------------------------------|
G|11-11---------------11-11---------------11-11----------------1010xxx10-----|
D|-----13-13-9-9-----------13-13-9-9-----------13-13-9-9-------1111xxx11-----|
A|--------------11-11---------------11-11---------------11-11--1111xxx11-----|
E|---------------------------------------------------------------------------|

| /  slide up
| \  slide down
| h  hammer-on
| p  pull-off
| ~  vibrato
| +  harmonic
| x  Mute note
===============================================================================
Tap to rate this tab
 
# A B C D E F G H I J K L M N O P Q R S T U V W X Y Z