Song name
# A B C D E F G H I J K L M N O P Q R S T U V W X Y Z

Misc Cartoons - Danger Mouse Theme tab

Help us improve GuitareTab! Take a short survey!
----------------------------------------------------------------------------
			     Danger mouse
----------------------------------------------------------------------------
Tabbed by:Steve the man!
Email:allchavsrgay@hotmail.com

Tuning:standard

e|-------------------------------------------------------------------------|
B|-------------------------------------------------------------------------|
G|-------------------------------------------------------------------------|
D|-------------------------------------------------------------------------|
A|-7-7-7-7-7-7--11-11-11-11-11-11--14-14-14-14-14-14-17--------------------|
E|-------------------------------------------------------------------------|

e|-------------------------------------------------------------------------|
B|-------------------------------------------------------------------------|
G|-----------------------------------------------------------10-10-10-10-9-|
D|-14-12-10----10-12-10--14-12-10----14-12-10----12-12-12-12---------------|
A|----------12--------------------12----------12---------------------------|
E|-------------------------------------------------------------------------|

e|-------------------------------------------------------------------------|
B|-------------------------------------------------------------------------|
G|--------------------------10-10-10-10--14--------------------------------|
D|-14-12-10----12-12-12-12-------------------------------------------------|
A|----------12-------------------------------------------------------------|
E|-------------------------------------------------------------------------|

e|-------------------------------------------------------------------------|
B|-------------------------------------------------------------------------|
G|-------------------------------------------------------------------------|
D|-15-15-15-11-11-11-8-8-8-16-16-16-12-12-12-9-9-9-------------------------|
A|-------------------------------------------------------------------------|
E|-------------------------------------------------------------------------|

e|-------------------------------------------------------------------------|
B|-------------------------------------------------------------------------|
G|-------------------------------------------------------------------------|
D|-14-14-14-14-14-14-15-15-15-15-15-15-14-12-14----------------------------|
A|-------------------------------------------------------------------------|
E|-------------------------------------------------------------------------|

HARAY FOR DANGER MOUSE!
Related for Danger Mouse Theme tab