Song name
# A B C D E F G H I J K L M N O P Q R S T U V W X Y Z

Misc Cartoons - Avatar The Last Airbende Theme tab

This is the 1 minute opening played before the Pilot episode 


Water Earth .......
e|-----------------------------------------------------|
B|-----------------------------------------------------|
G|----------8-----10----15-----------------------------|
D|---8------x-----x-----x------------------------------|
A|---x------6-----8-----13-----------------------------|
E|---6-------------------------------------------------|



My grandmother used tell me stories....
e|-----13--11--14--13----------------13--11--14--13--------------------------|
B|----------------------14---11-----------------------14--11-----------------|
G|---------------------------------------------------------------------------|
D|---------------------------------------------------------------------------|
A|---------------------------------------------------------------------------|
E|---------------------------------------------------------------------------|


Guitar 2:
e|---------------------------------------13---------------------------------|
B|---------------------------------------x----------------------------------|
G|---------------------------------------10---------------------------------|
D|--------------------------------------------------------------------------|
A|--------------------------------------------------------------------------|
E|--------------------------------------------------------------------------|



Fire nation attacked....
e|---------------------------------------------------------------------------|
B|---------------------------------------------------------------------------|
G|---10--11----14----10------------------------------------------------------|
D|---x---x-----x-----x-------------------------------------------------------|
A|---8---9-----12----8-------------------------------------------------------|
E|---------------------------------------------------------------------------|

Only the Avatar master of.....
e|---11--11---14---13--------------------19Tp--------------------------------|
B|-----------------x------14--11---------13Tp--------------------------------|
G|-----------------10--------------------------------------------------------|
D|---------------------------------------------------------------------------|
A|---------------------------------------------------------------------------|
E|---------------------------------------------------------------------------|


    A hundred years have passed..    Two years ago..
e|----------------------------------11--13---16--14--18---13---11------------|
B|---------------------------------------------------------------------------|
G|--------------------------------------------------------11---8-------------|
D|---------------------------------------------------------------------------|
A|----------6--5----9-8------------------------------------------------------|
E|--6---7-------------------6------------------------------------------------|



    Some people believe that the avatar....... 
e|-------------------------------------------11----------|
B|---11---------9--12-11---------------------------------|
G|--------------------------11---8---10--11---8----------|
D|-------------------------------------------------------|
A|-------------------------------------------------------|
E|---11--13-14-------------------------------------------|


Ending 

e|-------------------------------------------|
B|-----11---------11------------7------------|
G|-----8---8--6---8----8-6--4----------------|
D|-----8----------8--------------------------|
A|-------------------------------------------|
E|-------------------------------------------|


Tap to rate this tab
# A B C D E F G H I J K L M N O P Q R S T U V W X Y Z