Song name
# A B C D E F G H I J K L M N O P Q R S T U V W X Y Z

Misc Cartoons - Fosters Home For Imaginary Friends Theme tab

Help us improve GuitareTab! Take a short survey!
e|-------8----8-6--8--------------8--6-6---------------|
B|---------------------8-------------------------------|
G|---5-----------------------5-------------------------|
D|-----------------------------------------------------|
A|-----------------------------------------------------|
E|-----------------------------------------------------|


e|-----8--8-6-8--------------------------------------------------------------|
B|---------------8--9-8--6-6-8-4---9-8-6-6-----------------------------------|
G|--5------------------------------------------1-3-5-------------------------|
D|---------------------------------------------------------------------------|
A|---------------------------------------------------------------------------|
E|---------------------------------------------------------------------------|



e|-----8--8-6--8---------8--6-6-----8--8-6-8------------------------8-8--10--6-8-10-11--|
B|---------------8----------------------------8-9-8-6-6-8-4----9-8----------------------|
G|-5-----------------5-----------5------------------------------------------------------|
D|--------------------------------------------------------------------------------------|
A|--------------------------------------------------------------------------------------|
E|--------------------------------------------------------------------------------------|



e|-10h11p10h11--13----------11-10-11------10-11-13--13--11-------------------|
B|-----------------13---13------------13-------------------------------------|
G|---------------------------------------------------------------------------|
D|---------------------------------------------------------------------------|
A|---------------------------------------------------------------------------|
E|---------------------------------------------------------------------------|




e|-11--10h11p10h11--13---------11-10-11------10-11-11-11-------------------|
B|---------------------13---13------------13-------------------------------|
G|-------------------------------------------------------------------------|
D|-------------------------------------------------------------------------|
A|-------------------------------------------------------------------------|
E|-------------------------------------------------------------------------|

e|---10-----10----------8------8---------------------------------------------|
B|-------11-------11--------9------9------1/24-------------------------------|
G|---------------------------------------------------------------------------|
D|---------------------------------------------------------------------------|
A|---------------------------------------------------------------------------|
E|---------------------------------------------------------------------------|



e|-------8----8-6--8--------------8--6-6---------------|
B|---------------------8-------------------------------|
G|---5-----------------------5-------------------------|
D|-----------------------------------------------------|
A|-----------------------------------------------------|
E|-----------------------------------------------------|



e|--------8--6-6--11---13-13-13-13----15-15-15-15---19(x10)--20\1---8--------|
B|---------------------------------------------------------------------------|
G|---5-5---------------------------------------------------------------------|
D|---------------------------------------------------------------------------|
A|---------------------------------------------------------------------------|
E|---------------------------------------------------------------------------|






Related for Fosters Home For Imaginary Friends Theme tab