Song name
# A B C D E F G H I J K L M N O P Q R S T U V W X Y Z

Misc Cartoons - South Park - Sexual Harrasment Panda tab

Sexual Harrasment Panda! from that one hilarious episode of South Park. Here's how to 
his theme song thingy you hear whenever he is introduced.
When the...
e|-------------------------------------------------------------------------|
B|----3-------3--------3-------3---------------------------------------3---|
G|----3-------3--------3-------3---------------------------------------3---|
D|-3---------------3----------------------------------2-----5---3----------|
A|---------3---------------3-------------3--3--3--5------------------------|
E|-------------------------------------------------------------------------|
winds of the east meet the willow trees - Sexual Harrasment Panda!
that bar repeats with "something sexual harrasment to you and me, sexual harrasment 
then:

e|---------------------------------------------------------------------------|
B|----8-------8--------8-------8-----------8--------8--------8---------------|
G|----8-------8--------8-------8-----------8--------8--------8----------5----|
D|-8---------------8-------------------8------------------8---------7--------|
A|---------8---------------8--------------------8----------------8-----------|
E|---------------------------------------------------------------------------|
Don't say that, don't touch that, don't be nasty says the silly bear

repeat first bar for last verse:
He's gonna tell you what's right and wrong, sexual harrasment panda!
Tap to rate this tab
# A B C D E F G H I J K L M N O P Q R S T U V W X Y Z