Song name
# A B C D E F G H I J K L M N O P Q R S T U V W X Y Z

Misc Children - In The Night Garden tab

This is the Iggle Piggle Song from in the night garden.
Great one to play for your kids!
i figured this out on my keyboard as my sister was watching the programme
e:-------------------------------------------:
B:-------------------------------------------:
G:-------------------------------------------:
D:-------------------------------------------:
A:-7---10-8-7-8-7-------7-8-10-12-10-8-7-7---:
E:---8------------10-10--------------------10:


e:-------------------------------------------:
B:-------------------------------------------:
G:-------------------------------------------:
D:-------------------------------------------:
A:-7---10-8-7-8-7-------7-8-10-12-10-12-13-15:
E:---8------------10-10----------------------:

;:
Tap to rate this tab
# A B C D E F G H I J K L M N O P Q R S T U V W X Y Z