Song name
# A B C D E F G H I J K L M N O P Q R S T U V W X Y Z

Misc Children - Its A Small World tab

Misc Children
It's A Small World (Disneyland)
Tuning: Standard
Transcribed by Soch Hean

-This tab is in the correct key-

Verse:
|-------6----4-----------------4------------------------4-6--4----|
|---------7----7-7--6-6----------6--7-6-4-------------7--------7--|
|-3-4s6------------------3-4s6------------6-6---3-4s6-------------|
|-----------------------------------------------------------------|
|-----------------------------------------------------------------|
|-----------------------------------------------------------------|

|---4--6-7--6-4----7--6-4--------|
|-4-----------------------7------|
|---------------6----------------|
|--------------------------------|
|--------------------------------|
|--------------------------------|

Main Chorus:
|------6----4--4-4----4--4-7-4--6--6-6----6--6-9-6--7--7-7----6-4-----------|
|-7--7---7------------------------------------------------------------6---7-|
|-----------------------------------------------------------------6---------|
|---------------------------------------------------------------------------|
|---------------------------------------------------------------------------|
|---------------------------------------------------------------------------|

Verse:
|-------6----4-----------------4------------------------4-6--4----|
|---------7----7-7--6-6----------6--7-6-4-------------7--------7--|
|-3-4s6------------------3-4s6------------6-6---3-4s6-------------|
|-----------------------------------------------------------------|
|-----------------------------------------------------------------|
|-----------------------------------------------------------------|

|---4--6-7--6-4----7--6-4--------|
|-4-----------------------7------|
|---------------6----------------|
|--------------------------------|
|--------------------------------|
|--------------------------------| 
(x2)

Chorus:
|------6----4--4-4----4--4-7-4--6--6-6----6--6-9-6--7--7-7----6-4-----------|
|-7--7---7------------------------------------------------------------6---7-|
|-----------------------------------------------------------------6---------|
|---------------------------------------------------------------------------|
|---------------------------------------------------------------------------|
|---------------------------------------------------------------------------|
(Repeat)
Tap to rate this tab
# A B C D E F G H I J K L M N O P Q R S T U V W X Y Z