Song name
# A B C D E F G H I J K L M N O P Q R S T U V W X Y Z

Misc Children - Flaaklypa tab

Help us improve GuitareTab! Take a short survey!
                           norske hits - flklypa


e|-0-5-7-8-7-5-3-0-------------------------------------------------|
B|-----------------1-3-5-6-5-3-1-3-5-3-1-0-------------------------|
G|-----------------------------------------------------------------|
D|-----------------------------------------------------------------|
A|-----------------------------------------------------------------|
E|-----------------------------------------------------------------|



e|-0-5-7-8-7-5-3-0-------------------------------------------------|
B|-----------------1-3-5-6-5-3-1-3-5-3-1-0-------------------------|
G|-----------------------------------------2-1-2-------------------|
D|-----------------------------------------------------------------|
A|-----------------------------------------------------------------|
E|-----------------------------------------------------------------|




e|--5-3-1-----------1-0--------------------------------------------|
B|--------1-----1-3------------------------------------------------|
G|2---------2-2----------------------------------------------------|
D|-----------------------------------------------------------------| x2
A|-----------------------------------------------------------------|
E|-----------------------------------------------------------------|




e|-0-5-7-8-7-5-3-0-------------------------------------------------|
B|-----------------1-3-5-6-5-3-1-3-5-1-----------------------------|
G|-----------------------------------------------------------------|
D|-----------------------------------------------------------------|  x2
A|-----------------------------------------------------------------|
E|-----------------------------------------------------------------|

I think it's 100% correct

              AV JOACHIM 
Related for Flaaklypa tab