Song name
# A B C D E F G H I J K L M N O P Q R S T U V W X Y Z

Misc Children - Yankey Doodle tab

I got really bored one day so i decided to teach myself how to play this song.I
play it 2 different ways.so i tabbed them both.

1st Way

e-12-12-14-16-12-16-14-11-12-12-14-16-12~-11---------|
B----------------------------------------------------|
G----------------------------------------------------|
D----------------------------------------------------|
A----------------------------------------------------|
E----------------------------------------------------|

e-12-12-14-16-17-16-14-12-11--------------12---------|
B----------------------------12-14-16-17~------------|
G----------------------------------------------------|
D----------------------------------------------------|
A----------------------------------------------------|
E----------------------------------------------------|

2nd Way

e-1-1-3-5-1-5-3-0-1-1-3-5-1~-0-----------------------|
B----------------------------------------------------|
G----------------------------------------------------|
D----------------------------------------------------|
A----------------------------------------------------|
E----------------------------------------------------|

e-1-1-3-5-6-5-3-1-0----------1-----------------------|
B-------------------1-3-5-6~-------------------------|
G----------------------------------------------------|
D----------------------------------------------------|
A----------------------------------------------------|
E----------------------------------------------------|

im almost possitive this tab is 100% correct.:)
both of the ways sound right,just the second way is lower pitched.
Tap to rate this tab
# A B C D E F G H I J K L M N O P Q R S T U V W X Y Z