Song name
# A B C D E F G H I J K L M N O P Q R S T U V W X Y Z

Misc Children - Alouette tab

Alouette is a traditional french song.
Meant for classical guitar.

e|----0-2--2--0---0-2----------0-2-2--0---0-2-------|
B|-3------------3-----3-----3-----------3----3------|
G|----------------------2---------------------------|
D|-0------------------0-----0----------------0------|
A|------------0-----------------------0-------------|
E|--------------------------------------------------|

e|---0-2-3-5-5-5--5-3-2-0---------------------------|
B|-3----------------------3-3-3---------------------|
G|--------------------------------------------------|
D|--------------------------------------------------|
A|--------------------------------------------------|
E|--------------------------------------------------|

e|-5-5-5-------------5-3-2-0------------------------|
B|--------------------------------------------------|
G|----------2-2-2-----------------------------------|
D|--------------------------------------------------|
A|--------------------------------------------------|
E|--------------------------------------------------|

e|----0-2--2--0---0-2----------0-2-2--0---0-2-------|
B|-3------------3-----3-----3-----------3----3------|
G|----------------------2---------------------------|
D|-0------------------0-----0----------------0------|
A|------------0-----------------------0-------------|
E|--------------------------------------------------|


Tap to rate this tab
# A B C D E F G H I J K L M N O P Q R S T U V W X Y Z