Song name
# A B C D E F G H I J K L M N O P Q R S T U V W X Y Z

Misc Children - Twinkle Twinkle Little Star tab

-------------------------------------------------------------------------------
			    twinkle twinkle little star - misc childrens
-------------------------------------------------------------------------------
Tabbed by:metalhead601


Tuning: standard

e|------0---0---5---5---7---7---5------3---3---2---2---0---0-----------------|
B|-------------------------------------------------------------3-------------|
G|---------------------------------------------------------------------------|
D|---------------------------------------------------------------------------|
A|---------------------------------------------------------------------------|
E|---------------------------------------------------------------------------|

e|---5---5---3---3---2---2---0------5---5---3---3---2---2---0----------------|
B|---------------------------------------------------------------------------|
G|---------------------------------------------------------------------------|
D|---------------------------------------------------------------------------|
A|---------------------------------------------------------------------------|
E|---------------------------------------------------------------------------|

e|---0---0---5---5---7---7---5------3---3---2---2---0---0--------------------|
B|----------------------------------------------------------3----------------|
G|---------------------------------------------------------------------------|
D|---------------------------------------------------------------------------|
A|---------------------------------------------------------------------------|
E|---------------------------------------------------------------------------|



i was bored and figured this out
Tap to rate this tab
 
# A B C D E F G H I J K L M N O P Q R S T U V W X Y Z