Misc Children - Hot Cross Buns tab

e|----------------------------------|
B|----------------------------------|
G|----------------------------------|
D|--9--------7--------5-------------|
A|--9--------7--------5-------------|
E|--7--------5--------3-------------|
   HOT     CROSS     BUNS!!!


e|----------------------------------|
B|----------------------------------|
G|----------------------------------|
D|--9--------7--------5-------------|
A|--9--------7--------5-------------|
E|--7--------5--------3-------------|
   HOT     CROSS     BUNS!!!


e|---------------------------------|
B|---------------------------------|
G|---------------------------------|
D|--5---5---5--5-----7---7---7--7--|
A|--5---5---5--5-----7---7---7--7--|
E|--3---3---3--3-----5---5---5--5--|
   ONE  A  PENNY!    TWO  A  PENNY!


e|----------------------------------|
B|----------------------------------|
G|----------------------------------|
D|--9--------7--------5-------------|
A|--9--------7--------5-------------|
E|--7--------5--------3-------------|
   HOT     CROSS     BUNS!!!
Tap to rate this tab
 
# A B C D E F G H I J K L M N O P Q R S T U V W X Y Z