Song name
# A B C D E F G H I J K L M N O P Q R S T U V W X Y Z

Misc Children - In The Night Garden Theme tab

in the night garden theme - Tab by: Andy Mather

|---------------------------------------------------------------------------------------|
|-----------------------------------------------------------------------------9---------|
|-8-----------11-----9-----8-----9-----8-------------------8-----9-----11-----------9---|
|-------9------------------------------------11-----11----------------------------------|
|---------------------------------------------------------------------------------------|
|---------------------------------------------------------------------------------------|

|---------------------------------------------------------------------------------------|
|---------------------------------------------------------------------------------------|
|-8-----9-----8-----------8-----------11-----9-----8-----9-----8-------------------8----|
|-------------------7-----------9------------------------------------11-----11----------|
|---------------------------------------------------------------------------------------|
|---------------------------------------------------------------------------------------|

|---------------------------------------------------------------------------------------|
|--------------9-----------9-----11-----12----------------------------------------------|
|-9-----11-----------11-----------------------------------------------------------------|
|---------------------------------------------------------------------------------------|
|---------------------------------------------------------------------------------------|
|---------------------------------------------------------------------------------------|
Tap to rate this tab
 
# A B C D E F G H I J K L M N O P Q R S T U V W X Y Z