Song name
# A B C D E F G H I J K L M N O P Q R S T U V W X Y Z

Misc Children - Sesame Street Theme tab

-------------------------------------------------------------------------------
Sesame Street Theme - IDK
-------------------------------------------------------------------------------
Tabbed by: Brennan Kelley
Email:

Tuning: eBGDAE

e|---------------------------------------------------------------------------|
B|1-----------1-----1----------0-1-3-1-3-4-3-1---------------1-1---1---------|
G|--2-----0-2---2-----2-----0-2----------------2-0-0-2-3-2-0-----2-----------|
D|----3-3---------3-----3-3--------------------------------------------------|
A|---------------------------------------------------------------------------|
E|---------------------------------------------------------------------------|

e|---------------------------------------------------------------------------|
B|---------------------------------------------------------------------------|
G|-0-2-3-2-0-----------------------------------------------------------------|
D|---------------------------------------------------------------------------|
A|-----------3-3-3-----------------------------------------------------------|
E|---------------------------------------------------------------------------|

I just figured this out by ear so I could play it for my little brother but I guarantee 
this is the 100% correct tab so...enjoy!! :)
Tap to rate this tab
 
# A B C D E F G H I J K L M N O P Q R S T U V W X Y Z