Song name
# A B C D E F G H I J K L M N O P Q R S T U V W X Y Z

Misc Children - Twinkle Twinkle Little Star tab

-------------------------------------------------------------------------------
			    Twinkle Twinkle Little
-------------------------------------------------------------------------------
Tabbed by:
pain_killer_jake@hotmail.com

Tuning:Standard


My first tab, guys. I wanted to try a fingerstyle approach, and I hope I did it right. Enjoy!


e|--------0---0---2---2---0---------------------------------------0---0------|
B|------------------3---3---------3---3---2---2---0---0-------------------3--|
G|2---2-----2---2-----------2---2---2---2---2---2---1---1-2---------2---2---2|
D|--2---2---------0---0-------------------------------------2---2------------|
A|0---0---0---0-----------0---0---0---0---0---0-----------0---0---0---0---0--|
E|------------------------------------------------0---0----------------------|

e|--------------------0---0-----------------------------------0---0---2---2--|
B|3---2---2---0---------------3---3---2---2---0-------------------------3---3|
G|--2---2---2---1---1---2---2---2---2---2---2---1---1-2---2-----2---2--------|
D|------------------------------------------------------2---2---------0---0--|
A|0---0---0-----------0---0---0---0---0---0-----------0---0---0---0----------|
E|------------0---0---------------------------0---0--------------------------|

e|0-------------------------------0------------------------------------------|
B|--------3---3---2---2---0---0---0------------------------------------------|
G|--2---2---2---2---2---2---1---1-2------------------------------------------|
D|--------------------------------2--(strum and let all ring)----------------|
A|0---0---0---0---0---0-----------0------------------------------------------|
E|------------------------0---0----------------------------------------------|
Tap to rate this tab
# A B C D E F G H I J K L M N O P Q R S T U V W X Y Z