Guitaretab - guitar tabs
Song name
# A B C D E F G H I J K L M N O P Q R S T U V W X Y Z

Misc Children - Miss Susie Had A Steamboat tab

e|----------------------------------------------------------------------------|
B|-2--2--3-2--------------3---0-1-2-----2---------------------2-3-2-----------|
G|-----------4-2---2----2---2---------2---4-2---------2-4-2-4------4-2---2----|
D|---------------4----------------------------4-2-4--------------------4------|
A|----------------------------------------------------------------------------|
E|----------------------------------------------------------------------------|

e|-------------------------------------------------------------------------|
B|----3---0-1-2----2---------------------2-3-------------------------------|
G|--2---2--------2---4-2-------2---4-2-4-----------------------------------|
D|-----------------------4-2-4---4-----------------------------------------|
A|-------------------------------------------------------------------------|
E|-------------------------------------------------------------------------|


[ Tab from: http://www.guitaretab.com/m/misc-children/299618.html ]
Related for Miss Susie Had A Steamboat tab
×
Best way to learn
"Miss Susie Had A Steamboat"