Song name
# A B C D E F G H I J K L M N O P Q R S T U V W X Y Z

Misc Children - You Are My Sunshine tab

Tabbed by:  PRS14


Tuning:  EADGBe

e|----------------------------------------------------------------------|
B|-----------------5--5---5------5----------------------5---6---10------|
G|---------5---7-------------7--------5--5-------5---7------------------|
D|-----5----------------------------------------------------------------|
A|----------------------------------------------------------------------|
E|----------------------------------------------------------------------|

e|--------------------------------------------------------------------------|
B|----10---8---6---5-----------------5---6---10----10---8---6---5-----------|
G|---------------------------5---7------------------------------------------|
D|--------------------------------------------------------------------------|
A|--------------------------------------------------------------------------|
E|--------------------------------------------------------------------------|

e|--------------------------------------------------------------------------|
B|-------------5----6----6------------5-------------------------------------|
G|----5---7------------------7---7---------5--------------------------------|
D|--------------------------------------------------------------------------|
A|--------------------------------------------------------------------------|
E|--------------------------------------------------------------------------|
Tap to rate this tab
# A B C D E F G H I J K L M N O P Q R S T U V W X Y Z