Song name
# A B C D E F G H I J K L M N O P Q R S T U V W X Y Z

Misc Children - Frere Jacques tab

-------------------------------------------------------------------------------
                             Frère Jacques - Misc Children
-------------------------------------------------------------------------------
Tabbed by: Shaun
Email: N/A

Tuning: Standard

e|---------------------------------------------------------------------------|
B|---------------------------------------------------------------------------|
G|---0---2---4---0---0---0---2---4---0---4---5---7-----4---5---7-------------|
D|---------------------------------------------------------------------------|
A|---------------------------------------------------------------------------|
E|---------------------------------------------------------------------------|

e|---------------------------------------------------------------------------|
B|---3-5-3-1-0-------3-5-3-1-0-----------------------------------------------|
G|---------------0---------------0---0-------0------0-------0----------------|
D|---------------------------------------0--------------0--------------------|
A|---------------------------------------------------------------------------|
E|---------------------------------------------------------------------------|
Tap to rate this tab
# A B C D E F G H I J K L M N O P Q R S T U V W X Y Z