Guitaretab - guitar tabs
Song name
# A B C D E F G H I J K L M N O P Q R S T U V W X Y Z

Misc Children - Old Mcdonald tab

This is a very, very simple song to play xD. (And to tab too =p)
You can sing along while playing the song, it's fun for children.


E ----------------------------0--0-----------------------------|
B -1--1--1-------------------------3--3--1---------------------|
G ------------0--2--2--0---------------------------------------|
D -------------------------------------------------------------|
A -------------------------------------------------------------|
E -------------------------------------------------------------|

Old Mc-Do-nald had a farm. hi-ha-hi-ha-ho

E ------------------------------0--0---------------------------|
B ----1--1--1-------------------------3--3--1------------------|
G 0--------------0--2--2--0------------------------------------|
D -------------------------------------------------------------|
A -------------------------------------------------------------|
E -------------------------------------------------------------|

And on his farm he had some cows. hi-ha-hi-ha-ho
[ Tab from: http://www.guitaretab.com/m/misc-children/32037.html ]
E ------------------------------0--0---------------------------|
B ----1--1--1-------------------------3--3--1------------------|
G 0--------------0--2--2--0------------------------------------|
D -------------------------------------------------------------|
A -------------------------------------------------------------|
E -------------------------------------------------------------|

With a "muuh-muuh" here and a "muuh-muuh" there.
"Muuh-muuh" here, "muuh-muuh" there.
Everywhere a "muuh".

E ----------------------------0--0-----------------------------|
B -1--1--1-------------------------3--3--1---------------------|
G ------------0--2--2--0---------------------------------------|
D -------------------------------------------------------------|
A -------------------------------------------------------------|
E -------------------------------------------------------------|

Old Mc-Do-nald had a farm. hi-ha-hi-ha-ho

Note: the "muuh-muuh" is supposed to be the noise of a cow,
but you can change between any farm animal (noise) you want.


Complaints or suggestions: fruity_life@live.be
Related for Old Mcdonald tab
Advertisement will be closed in 10 seconds