Song name
# A B C D E F G H I J K L M N O P Q R S T U V W X Y Z

Misc Children - Mary Had A Little Lamb tab

 Mary had a little lamb



 e|-------------------------------|
 B|--------------------------6-6--|
 G|--7-5---5-7-7---5-5-5---7------|
 D|------8------------------------|
 A|-------------------------------|
 E|-------------------------------|

 e|-------------------------------|
 B|-------------------------------|
 G|--7-5---5-7-7-7-7-7-5-5-7-5----|
 D|------8---------------------8--|
 A|-------------------------------|
 E|-------------------------------|



Nice playing@@
Tap to rate this tab
# A B C D E F G H I J K L M N O P Q R S T U V W X Y Z