Song name
# A B C D E F G H I J K L M N O P Q R S T U V W X Y Z

Misc Children - Mary Had A Little Lamb tab

-------------------------------------------------------------------------------
                             Mary Had A Little Lamb - Misc Childrens
-------------------------------------------------------------------------------
Tabbed by: metalhead601

Really this song can be played on any string on the same frets but I did it on just the 
high "e" so yah here we go.

Tuning:EADGBe

e|-----4----2----0----2----4----4----4----2----2----2----4----7----7---------|
B|---------------------------------------------------------------------------|
G|---------------------------------------------------------------------------|
D|---------------------------------------------------------------------------|
A|---------------------------------------------------------------------------|
E|---------------------------------------------------------------------------|

e|----4----2----0----2----4----4----4----4----2----2----4----2----0----------|
B|---------------------------------------------------------------------------|
G|---------------------------------------------------------------------------|
D|---------------------------------------------------------------------------|
A|---------------------------------------------------------------------------|
E|---------------------------------------------------------------------------|

e|-----0----4----2----0----2----4----4----4----2----2----2----4----7----7----|
B|---------------------------------------------------------------------------|
G|---------------------------------------------------------------------------|
D|---------------------------------------------------------------------------|
A|---------------------------------------------------------------------------|
E|---------------------------------------------------------------------------|


e|----4----2----0----2----4----4----4----4----2----2----4----2----0----------|
B|---------------------------------------------------------------------------|
G|---------------------------------------------------------------------------|
D|---------------------------------------------------------------------------|
A|---------------------------------------------------------------------------|
E|---------------------------------------------------------------------------|
Tap to rate this tab
 
# A B C D E F G H I J K L M N O P Q R S T U V W X Y Z