Song name
# A B C D E F G H I J K L M N O P Q R S T U V W X Y Z

Misc Children - Twinkle Twinkle Little Star tab

E ------------------------------------------------------------------------------|
A -0-0--------------------4-4-2-2-0---------4-4-2-------------------------------|
D -----2-2-4-4-2------0-0-----------2-2-0-0-------5-5-4-4-3-3-2-----------------|
G ------------------------------------------------------------------------------|
B ------------------------------------------------------------------------------|
e ------------------------------------------------------------------------------|

E ----------------------------------------------------------------------------|
A -0-0---------------4-4-2-2-0------------------------------------------------|
D -----2-2-4-4-2-0-0----------------------------------------------------------|
G ----------------------------------------------------------------------------|
B ----------------------------------------------------------------------------|
e ----------------------------------------------------------------------------|
Tap to rate this tab
# A B C D E F G H I J K L M N O P Q R S T U V W X Y Z