Song name
# A B C D E F G H I J K L M N O P Q R S T U V W X Y Z

Misc Children - Baa Baa Black Sheep tab

Tuning: Standard

Difficulty: Novice

_________________

A
_________________

 "Baa Baa Black Sheep Have you any wool?"

 e----------0-0-0-0-------------------|
 b------3-3---------3--1-1-0-0--------|
 g--0-0------------------------2-2-0--|
 d------------------------------------|
 a------------------------------------|
 E------------------------------------|

B
_________________

 "One for the master, One for the dame..."

 e-------------0-0-0---------------------------|
 b--------3-3--------3--1-1-1-0-0-0------------|
 g--0-0-0---------------------------2-2-2-0-0--|
 d---------------------------------------------|
 a---------------------------------------------|
 E---------------------------------------------|

A
_________________

 "Baa Baa Black Sheep Have you any wool?"

 e----------0-0-0-0-------------------|
 b------3-3---------3--1-1-0-0--------|
 g--0-0------------------------2-2-0--|
 d------------------------------------|
 a------------------------------------|
 E------------------------------------|

_________________

Tabbed by: Aresous
Tap to rate this tab
# A B C D E F G H I J K L M N O P Q R S T U V W X Y Z