Song name
# A B C D E F G H I J K L M N O P Q R S T U V W X Y Z

Misc Children - This Old Man tab

-----------------------------------------------------------------------------
                             This Old Man
-----------------------------------------------------------------------------
Tabbed by: Aaron
E-mail: hamsteri69@yahoo.com

Tuning: Standard

     
  C                         F                     G7           C
This old man he played one. He played knick knack on my thumb. Knick knack

                                G7                C  G7   C
paddy whack give the dog a bone this old man came rolling home.


e|------------------------------------------------------------------------|
B|------------------------------------------------------------------------|
G|---0-------0-----0----------0-----2-----0-------------------------------|
D|-------2--------------2----------------------3-----2------0----2----3---|
A|------------------------------------------------------------------------|
E|------------------------------------------------------------------------|

e|------------------------------------------------------------------------|
B|------------------------------------------------------------------------|
G|---0---------------------------------0----0-----------------------------|
D|--------------------------0---2---3----------0---0---3---2---0----------|
A|------3----3-3-3-----3-------------------------------------------0------|
E|------------------------------------------------------------------------|
Tap to rate this tab
# A B C D E F G H I J K L M N O P Q R S T U V W X Y Z