Song name
# A B C D E F G H I J K L M N O P Q R S T U V W X Y Z

Misc Children - Were Is Pinky tab

standard tuning EADGBe


this is my first tab ever so be gentle ok here i go


------0-2-4-0-------|
--------------------|
--------------------|     X2
--------------------|
--------------------|
--------------------| 

------4-5-7---------|
--------------------|
--------------------|      X2
--------------------|
--------------------|
--------------------|

---7-9-7-5-4-0------|
--------------------|
--------------------|     X2
--------------------|
--------------------|
--------------------|


--------------------|
--3-0-3-------------|
--------------------|        X2
--------------------|
--------------------|
--------------------|


and thats it through the whole song so have fun
Tap to rate this tab
 
# A B C D E F G H I J K L M N O P Q R S T U V W X Y Z