Song name
# A B C D E F G H I J K L M N O P Q R S T U V W X Y Z

Misc Children - Old Macdonald tab

----------------------------------------------------------------------------
			     Old Macdonald - Unknown Artist
----------------------------------------------------------------------------
Tabbed by: Jon Wood
Email: I know how popular this song is, so i don't want emails, but comments are good... 
ratings too...

Tuning: Standard


Tune:
=====

   G                      C       G              D   
      G
e|-------------------------------------------------------------------------|
B|---------------------------------------0---0-----------------------------|
G|-0---0-----0------------------------------------2----2----0--------------|
D|-----------------0------2---2----0----------------------------------0----|
A|-------------------------------------------------------------------------|
E|-------------------------------------------------------------------------|
  Old Mac - Do - nald    had  a  farm    E - I  - E  - I  - O        And

                         C         G              D         G
e|-------------------------------------------------------------------------|
B|---------------------------------------0---0-----------------------------|
G|-0---0-----0------------------------------------2----2----0--------------|
D|-----------------0------2---2----0---------------------------------------|
A|-------------------------------------------------------------------------|
E|-------------------------------------------------------------------------|
  On That  Farm    He    Had  a (animal) E - I  - E  - I  - O


e|-------------------------------------------------------------------------|
B|-------------------------------------------------------------------------|
G|-------------0-------0-------0-------------0-------0------0--------------|
D|--0----0---------------------------0--0----------------------------------|
A|-------------------------------------------------------------------------|
E|-------------------------------------------------------------------------|
   With  a  (noise)-(noise)  here   and a (noise)-(noise) there


e|-------------------------------------------------------------------------|
B|-------------------------------------------------------------------------|
G|---0----0----0-------0-----0----0-----0----0----0-----0----0-------0-----|
D|-------------------------------------------------------------------------|
A|-------------------------------------------------------------------------|
E|-------------------------------------------------------------------------|
   Here   a  (noise), there  a (noise), Ev - ry- where  a (noise)-(noise)

                          C        G              D(D7)     G
e|-------------------------------------------------------------------------|
B|---------------------------------------0---0-----------------------------|
G|-0---0-----0------------------------------------2----2----0--------------|
D|-----------------0------2---2----0----------------------------------0----|
A|-------------------------------------------------------------------------|
E|-------------------------------------------------------------------------|
  Old Mac - Do - nald    had  a  farm    E - I  - E  - I  - O        And...

Chords:
=======
G             C     G         D   G
Old Macdonald had a farm, E-I-E-I-O
                   C     G        D   G
And on his farm he had a cow, E-I-E-I-O

With a "moo-moo" here and a "moo-moo" there

Here a "moo" there a "moo"

Everywhere a "moo-moo"
              C     G         D   G
Old Macdonald had a farm, E-I-E-I-O


G             C     G         D   G
Old Macdonald had a farm, E-I-E-I-O
                   C     G        D   G
And on his farm he had a pig, E-I-E-I-O

With a (snort) here and a (snort) there

Here a (snort) there a (snort)

Everywhere a (snort-snort)
              C     G         D   G
Old Macdonald had a farm, E-I-E-I-O


G             C     G         D   G
Old Macdonald had a farm, E-I-E-I-O
                   C     G          D   G
And on his farm he had a horse, E-I-E-I-O

With a "neigh, neigh" here and a "neigh, neigh" there

Here a "neigh" there a "neigh"

Everywhere a "neigh-neigh"
              C     G         D   G
Old Macdonald had a farm, E-I-E-I-O....

============================================================================
 That's pretty much it but you can make up endless verses and personalise the lyrics and 
Old Macdonald Had an anything, it doesnt even have to be an animal... The pssibilities 
endless

RATE AND COMMENT THANKYOU!!!!!
Tap to rate this tab
# A B C D E F G H I J K L M N O P Q R S T U V W X Y Z