Song name
# A B C D E F G H I J K L M N O P Q R S T U V W X Y Z

Misc Children - Hickory Dickory Dock tab

6/8

|-------------------|---------------|--------------------|---------------|
|-------------0--2--|--3------------|--------------0--2--|--3------------|
|-----0--2--2-------|---------------|-----0--2--2--------|------------2--|
|--4----------------|------------4--|--4-----------------|---------------|
|-------------------|---------------|--------------------|---------------|
|-------------------|---------------|--------------------|---------------|

|----------------|------------|--------------------|-----|
|--3---3--2---2--|--0---0-----|-----0--------------|-----|
|----------------|---------2--|--2-----2--0--------|-----|
|----------------|------------|--------------4--2--|--0--|
|----------------|------------|--------------------|-----|
|----------------|------------|--------------------|-----|

Hickory, dickory, dock!
The mouse ran up the clock!
The clock struck one,
the mouse ran down,
hickory, dickory, dock!
Tap to rate this tab
 
# A B C D E F G H I J K L M N O P Q R S T U V W X Y Z