Guitaretab - guitar tabs
Song name
# A B C D E F G H I J K L M N O P Q R S T U V W X Y Z

Misc Childrens - Nellie The Elephant tab

Tabbed by:thekidwiththereplaceablehead 
Email:thekidwiththereplaceablehead@hotmail.com

Tuning:Standard

intro:
e|-0-------0-------0---2---0--|
B|-0---4---0-------1---4---0--|
G|-0---4---0-------0---2---0--|
D|-2---4---2-------2---4---2--|
A|-2---2---2-------0---0---2--|
E|-0-------0---------------0--|

verse:
e|-0-------0-----0-----------0----2----0-------|
B|-0---4---0-----0-----4-----1----4----1----4--|  
G|-0---4---0-----0-----4-----0----2----0----4--| *2
D|-2---4---2-----2-----4-----2----4----2----4--|
A|-2---2---2-----2-----2-----0----0----0----2--|
E|-0-------0-----0-----------------------------|
[ Tab from: http://www.guitaretab.com/m/misc-childrens/12148.html ]
chorus:
e|--------------------------------------------------------------------------|
B|-----------------------------------------------------------------------4--|
G|---------------------2-2--4-4------------2-2--4-4----------------------4--|
D|-2-2--4-4--2-2--4-4--2-2--4-4--2-2--4-4--2-2--4-4--2-2--4-4------------4--|
A|-2-2--4-4--2-2--4-4------------2-2--4-4------------2-2--4-4--4-4--6-6--2--|
E|-------------------------------------------------------------2-2--2-2-----|
PM.....................................................................  
e|-------------------------------------------------------------2-----0--|
B|-------------------------------------------------------------4--4--0--|
G|---------------------2-2--4-4------------2-2--4-4------------2--4--0--|
D|-2-2--4-4--2-2--4-4--2-2--4-4--2-2--4-4--2-2--4-4--2-2--4-4--4--4--2--|
A|-2-2--4-4--2-2--4-4------------2-2--4-4------------2-2--4-4--0--2--2--|
E|-------------------------------------------------------------------0--|
PM...........................................................
                         
Em    B5    Em
to    bom   bay

Olga taught me how to play this so its 100%.

Verse should be played in arpeggio.

some of the chords may seem wierd at first.
Related for Nellie The Elephant tab
Nellie The Elephant chords by Misc Childrens