Song name
# A B C D E F G H I J K L M N O P Q R S T U V W X Y Z

Misc Christmas - Joulu On Taas tab

Finnish christmas song "Joulu On Taas".

Tabbed by: T3NNu
Email: t3nnu@luukku.com


e|---------------------------------------------------------------------------|
B|---2-2-------2-2-----------------------------------------------------------|
G|-------4-2-------4-2----4-4-2-1-2-4-2--------------------------------------|
D|---------------------------------------------------------------------------|
A|---------------------------------------------------------------------------|
E|---------------------------------------------------------------------------|

e|---------2----------0------------------------------------------------------|
B|---4-4-4-------2-2-2---------2-3-2-----------------------------------------|
G|------------------------4-4-------4-2--------------------------------------|
D|---------------------------------------------------------------------------|
A|---------------------------------------------------------------------------|
E|---------------------------------------------------------------------------|


 1. Joulu on taas, joulu on taas,    2. Joulu on taas, joulu on taas,
    kattilat täynnä puuroo.             voi, kuinka meil on hauskaa!
    Nyt sitä saa, nyt sitä saa          Lapsilla on, lapsilla on
    vatsansa täyteen puuroo.            aamusta iltaan hauskaa.
Tap to rate this tab
 
# A B C D E F G H I J K L M N O P Q R S T U V W X Y Z