Song name
# A B C D E F G H I J K L M N O P Q R S T U V W X Y Z

Misc Christmas - A Merry Little Christmas tab

/=slide
~=let it ring


-----------------------------------------------------------|
-----------------------------------------------------------|
-----------------------------------------------------------|
--------5--------------------------5-----------------------|
---3--5---5-3-2----------------3-5---5~~-------------------|
-2--------------5-3-5--------2-----------------------------|


-----------------------------------------------|
-----------------------------------------------|
-----------------------------------------------|
--------5---9--7--5--4--2--4--0--7/5-----------|
---3--5----------------------------------------|
-2---------------------------------------------|


Its an easy song.
i learned it myself.

thx!! Comment please
Tap to rate this tab
# A B C D E F G H I J K L M N O P Q R S T U V W X Y Z