Song name
# A B C D E F G H I J K L M N O P Q R S T U V W X Y Z

Misc Christmas - Oh When The Saints Come Marching In tab

Tabbed by DoteStudios
This is the song played on the major scale.

E---------------------------------------------------------------------|
B---------------------------------------------------------------------|
G---------------------------------------------------------------------|
D---------------------------------------------------------------------|
A---2-3-5----2-3-5----2-3-5--2-----2-----2-2--------2--5--5-3--3-2-3--|
E-3--------3--------3-----------3-----5------5-3--3-------------------|

E------------------|
B------------------|
G------------------|
D------------------|
A-5--2-------------|
E-------5--5--3~~--|

Tap to rate this tab
# A B C D E F G H I J K L M N O P Q R S T U V W X Y Z