Song name
# A B C D E F G H I J K L M N O P Q R S T U V W X Y Z

Misc Christmas - Deck The Halls tab

Deck The Halls Harmony

This sounds so awesome me and my buds sounded this out 1 is in the ug community
hes guitar 999111. Questions or comments E-mail me at kaynebeeson@hotmail.com or
 squierstratocaster2@hotmail.com either one is fine

Tabbed by: Kayne Beeson


Tis the season to be jolly fa la la la la la la la la
E|-14---12-10---------------10-----------10-12----10-------------------------------|
B|--------------13---12-13-----13---13---------13-----13-12---10-12----------------|
G|---------------------------------------------------------------------------------|
D|---------------------------------------------------------------------------------|
A|---------------------------------------------------------------------------------|
E|---------------------------------------------------------------------------------|
 Deck the halls with boughs of holly fa la la la la  la la la la
E|-14---12-10---------------10-----------10-12----10------------------------------|
B|--------------13---12-13-----13---13---------13-----13-12---10-12---------------|
G|--------------------------------------------------------------------------------|
D|--------------------------------------------------------------------------------|
A|--------------------------------------------------------------------------------|
E|--------------------------------------------------------------------------------|

Don we now our gay apparel fa la la la la la la la la
E|-------10-12--------10--12-14------16-17-19---17--16----------------------------|
B|-13-----------13----------------13--------------------------19------------------|
G|--------------------------------------------------------------------------------|
D|--------------------------------------------------------------------------------|
A|--------------------------------------------------------------------------------|
E|--------------------------------------------------------------------------------|
   Troll the ancient yuletide carol fa la la la la la la la la
E|-14--12-10---------------10-----16-16-16-16-14---12---10-------------------------|
B|--------------13--12--13----13----------------------------------13-12------------|
G|---------------------------------------------------------------------------------|
D|---------------------------------------------------------------------------------|
A|---------------------------------------------------------------------------------|
E|---------------------------------------------------------------------------------|

Play whole thing twice
If you dont know this is the harmony to get this to sound right with a band
accompanie it with the keyboard and verse guitar parts.
Tap to rate this tab
# A B C D E F G H I J K L M N O P Q R S T U V W X Y Z