Song name
# A B C D E F G H I J K L M N O P Q R S T U V W X Y Z

Misc Christmas - Hark The Herald Angels Sing tab

-------------------------------------------------------------------------------
			     HARK THE HERALD ANGELS SING - Christmas
-------------------------------------------------------------------------------
Tabbed by:  Brian
Email: tutorman101@yahoo.com

Tuning:  Standard

e|--------------|---------------|---------------|----------------------------|
B|--------------|-1-1-1---------|---------------|-1--------------------------|
G|--------2-2-0-|-------3-2-0-2-|---------2-2-0-|---0-0----------------------|
D|--3-3-2-------|---------------|---3-3-2-------|--------3-2-0---------------|
A|3-------------|---------------|-3-------------|--------------3-------------|
E|--------------|---------------|---------------|----------------------------|

e|-----------------|-----------------|--------------|------------------------|
B|1-1-1------------|1-1-1------------|3-3-3-1-------|------1-----------------|
G|---------3-2-2-0-|---------3-2-2-0-|---------3-2-3|0-2h3--------0-2--------|
D|------3----------|------3----------|--------------|---------3-3------------|
A|-----------------|-----------------|--------------|------------------------|
E|-----------------|-----------------|--------------|------------------------|

e|--------------|----------------|
B|3-3-3-1-------|------1---------|
G|--------3-2-3-|0-2h3-------0---|
D|--------------|--------3-3---3-|
A|--------------|----------------|
E|--------------|----------------|
Tap to rate this tab
# A B C D E F G H I J K L M N O P Q R S T U V W X Y Z