Song name
# A B C D E F G H I J K L M N O P Q R S T U V W X Y Z

Misc Christmas - Here Comes Santa Claus tab

e|---4-2-2-0---4-2-2-0---5-5-4-5---5-5-4-5---5-5-4-5-7-7-7-6-7-|
B|-0---------0---------0---------0---------0-------------------|
G|-------------------------------------------------------------|
D|-------------------------------------------------------------|
A|-------------------------------------------------------------|
E|-------------------------------------------------------------|

e|---9-12-11-9---7-10-9-7---5-9-7-5-4------------------------------|
B|-----------------------------------------------------------------|
G|-----------------------------------------------------------------|
D|-----------------------------------------------------------------|
A|-----------------------------------------------------------------|
E|-----------------------------------------------------------------|

e|---9-12-11-9---7-10-9-5-7-7-5-4-2-0----------------------------|
B|---------------------------------------------------------------|
G|---------------------------------------------------------------|
D|---------------------------------------------------------------|
A|---------------------------------------------------------------|
E|---------------------------------------------------------------|

Here you go...it's the whole thing!
Tap to rate this tab
# A B C D E F G H I J K L M N O P Q R S T U V W X Y Z