Song name
# A B C D E F G H I J K L M N O P Q R S T U V W X Y Z

Misc Christmas - Ill Be Home For Christmas tab

===========================================================================
                I'll Be home for Christmas
===========================================================================

Band: Misc Christmas
Tabber: Karl Seno
Date: Dec,12, 2005  9:00 pm
E-mail: krsgravity21@yahoo.com


e|-8-7-10-8-----|-5---6-5---|-----------|---8-|-7-10-10-|
B|----------8-8-|---8-------|---5-8-6-5-|-8---|---------|
G|--------------|---------7-|-7---------|-----|---------|
D|--------------|-----------|-----------|-----|---------|
A|--------------|-----------|-----------|-----|---------|
E|--------------|-----------|-----------|-----|---------|

e|-7-10---5-|-8-7-10-12-8-10-8-|
B|------8---|------------------|
G|----------|------------------|
D|----------|------------------|   
A|----------|------------------|
E|----------|------------------|

That's All...Mas maganda kung alam nyo ung kanta...ung tono
============================================================================
Tap to rate this tab
 
# A B C D E F G H I J K L M N O P Q R S T U V W X Y Z