Guitaretab - guitar tabs
Song name
# A B C D E F G H I J K L M N O P Q R S T U V W X Y Z

Misc Christmas - It Came Upon A Midnight Clear tab

----------------------------------------------------------------------------
			     IT CAME UPON A MIDNIGHT CLEAR
----------------------------------------------------------------------------
Tabbed by: Hayley Guillou
Email: hayleyguillou@hotmail.com

Tuning: Standard

  F                   C7        F    Bb     F        C    Dm
e|-------|-----------|---------|-----------|--------|---------|
B|-------|-----------|-------1-|-1-----1-3-|-1------|-1-1-----|
G|-----0-|-2-0---0-2-|-3-2-0---|---2-3-----|----2-3-|-----2---|
D|---3---|-----3-----|---------|-3---------|-3------|-2-----3-|
A|---0---|-3---------|-1-------|-----------|--------|---------|
E|-------|-----------|---------|-----------|--------|---------|
[ Tab from: http://www.guitaretab.com/m/misc-christmas/119036.html ]
  C7   F               C  F    Dm A         Dm
e|-----------|-----------|-------|---------|-----------|
B|-----------|-----1-----|-------|---------|-----------|
G|-3-2-0---0-|-2-3---2-0-|-------|-------0-|---------2-|
D|-0-----3---|-3-------2-|-3---3-|-2-0-2---|-3--2--0---|
A|-----3-----|-----------|-0---5-|-0-------|-5---------|
E|-----------|-----------|-------|---------|-------1---|

  G         C       F    D      Bb   C      F        C  F
e|---------|-------|-----------|-----------|-----------|-----|
B|---------|-------|-1---------|-----------|-----1-----|----|
G|-0-------|-------|---3-2-0-2-|-3-2-0---0-|-2-3---2-0-|-----|
D|---3-2-0-|-------|-3---------|-------3---|-3---------|-3---|
A|---------|-3---3-|-----------|-1---3-----|-------3---|----|
E|-3-------|-0-----|-----------|-----------|-----------|-1---|


| /  slide up
| \  slide down
| h  hammer-on
| p  pull-off
| ~  vibrato
| +  harmonic
| x  Mute note
============================================================================
Related for It Came Upon A Midnight Clear tab