Song name
# A B C D E F G H I J K L M N O P Q R S T U V W X Y Z

Misc Christmas - Little Drummer Boy tab

Help us improve GuitareTab! Take a short survey!
Here's the tab for the random christmas song, Little Drummer Boy. The other versions 
more confusing so I simpified it so it still sounds like the original.Trust me, you'll get 
rhythm in a heartbeat. Please rate! Nobody ever rates any of my tabs!

e|--------------------------------------------------------0-0-0-2-0---------|
B|---0-2-2-2-2-2-3-2-3-2----0-2-2-2-2-2-3-2-3-2---0--2-3-------------3-2-0--|
G|-2----------------------2-------------------------------------------------|
D|--------------------------------------------------------------------------|
A|--------------------------------------------------------------------------|
E|--------------------------------------------------------------------------|

e|-------0-0-0-2-3-2-0----2-0-----0-----------------------------------------|
B|-0-2-3---------------3------3-2---3-2-0----0-2-2-2-2-2-3-2-3-2---0--0-----|
G|-----------------------------------------2-------------------------2--2---|
D|--------------------------------------------------------------------------|
A|--------------------------------------------------------------------------|
E|--------------------------------------------------------------------------|
Related for Little Drummer Boy tab