Guitaretab - guitar tabs
Song name
# A B C D E F G H I J K L M N O P Q R S T U V W X Y Z

Misc Christmas - First Noel tab

			     First Noel  Christmas misc
-----------------------------------------------------------------------
Tabbed by: Poopacaboose36
Email: Poopacaboose@yahoo.com
Tuning: Standard

e|--------------------------0----2------4----6----7----6----4----2----|
B|--4----2----0----2----4---------------------------------------------|
G|--------------------------------------------------------------------|
D|--------------------------------------------------------------------|
A|--------------------------------------------------------------------|
E|--------------------------------------------------------------------|


[ Tab from: http://www.guitaretab.com/m/misc-christmas/126843.html ]
e|-4---6---7---6---4---2---4---6---7---2---0------------------------0-|
B|--------------------------------------------4---4---2---0---4---2---|
G|--------------------------------------------------------------------|
D|--------------------------------------------------------------------|
A|--------------------------------------------------------------------|
E|--------------------------------------------------------------------|


e|--2---7---6---4---4---2----7---6---4---2---4---6---7---2---0--------|
B|---------------------------------------------------------------4~---|
G|--------------------------------------------------------------------|
D|--------------------------------------------------------------------|
A|--------------------------------------------------------------------|
E|--------------------------------------------------------------------|


| /  slide up
| \  slide down
| h  hammer-on
| p  pull-off
| ~  vibrato
| +  harmonic
| x  Mute note
===============================================================
Related for First Noel tab