Song name
# A B C D E F G H I J K L M N O P Q R S T U V W X Y Z

Misc Christmas - God Rest Ye Merry Gentlemen tab

e|-------------------------------------|--------------------------------------|
B|-----12-12-10-------------------10-12|-----12-12-10--------------------10-12|
G|-9-9----------12-11-9----9-11-12-----|-9-9----------12-11-9----9-11-12------|
D|----------------------12-------------|----------------------12--------------|
A|-------------------------------------|--------------------------------------|
E|-------------------------------------|--------------------------------------|

e|----------------10-12------------------------------------------------------|
B|-12-13-10-12-13-------12-10-----------10----10-12-13-12-12p10--------------|
G|----------------------------12-9-11-12---12-------------------12-11-9------|
D|---------------------------------------------------------------------------|
A|---------------------------------------------------------------------------|
E|---------------------------------------------------------------------------|

                                         (optional...but very nice touch)
e|------------------------10-12------------(12)------------------------------|
B|---------10----10-12-13-------12\10----------------------------------------|
G|-12-11-9----12----------------------12-11-9--------------------------------|
D|---------------------------------------------------------------------------|
A|---------------------------------------------------------------------------|
E|---------------------------------------------------------------------------|
Tap to rate this tab
 
# A B C D E F G H I J K L M N O P Q R S T U V W X Y Z