Song name
# A B C D E F G H I J K L M N O P Q R S T U V W X Y Z

Misc Christmas - Hark The Herald tab

-------------------------------------------------------------------------------
			     Hark the Herald
-------------------------------------------------------------------------------
Tabbed by: Bryan H
Email: bobdarocker34@aol.com

Tuning: Standard

Part 1 * 
e|---------------------------------------------------------------------------|
B|---------------12-12----15-15-15-13-12-10-12---------------12-12----15-----|
G|---12-12----12-------14------------------------12-12----12-------14----14-14-|
D|-12------12----------------------------------12------12--------------------|
A|---------------------------------------------------------------------------|
E|---------------------------------------------------------------------------|

Part 2 * Play twice
e|---------------------------------------------------------------------------|
B|---------------15-15-15----13-12-12/10-------------------------------------|
G|----12-11-9-------------12-------------------------------------------------|
D|------------12-------------------------------------------------------------|
A|---------------------------------------------------------------------------|
E|---------------------------------------------------------------------------|

Part 3  Play twice (**this note the second time around)
e|-12-12-12-10-------------------10------------------------------------------|
B|-------------13-12-13-10-12-13----------10-12*-----------------------------|
G|----------------------------------12-12----12**----------------------------|
D|---------------------------------------------------------------------------|
A|---------------------------------------------------------------------------|
E|---------------------------------------------------------------------------|
Tap to rate this tab
 
# A B C D E F G H I J K L M N O P Q R S T U V W X Y Z