Song name
# A B C D E F G H I J K L M N O P Q R S T U V W X Y Z

Misc Christmas - The Nightmare Before Christmas tab


e|-7-7-7--7-8-7--5-5-(5)-5-5-5-77-8-7------|
B|-8-8-8--8-8-8--7-7-(7)-7-7-7-88-8-8------|
G|-----------------------------------------|
D|-----------------------------------------|
A|-----------------------------------------|
E|-----------------------------------------|

e|-7-7-7-8-10-7-5-5-5-5-6-5-3-3--------|
B|-8-8-8-8-10-7-5-7-7------------------|
G|-------------------------------------|
D|-------------------------------------|
A|-------------------------------------|
E|-------------------------------------|

Tap to rate this tab
# A B C D E F G H I J K L M N O P Q R S T U V W X Y Z