Song name
# A B C D E F G H I J K L M N O P Q R S T U V W X Y Z

Misc Christmas - Angels We Have Heard On High tab

Angels We Have Heard On High

|*-=-=-=-|=-=-=-=-|=-=-=-=-|=-=-=-=*|
|-------0|0-------|-------0|0-------|
|2-2-2-2-|0--32---|2-202-2-|0--32---|
|2---2---|1---2-2-|2---2---|1---2---|
|--------|--------|--------|--------|
|0---0---|----0---|0---0---|----0---|
|--------|0-------|--------|0-------|

|*-=-=-=-|=-=-=-=-|=-=-=-=-|=-=-=-=-|=-=-=-=-|=-=-=-=*||=-=-=-=-|
|0---2---|----0---|--------|--------|--------|--------||--------|
|2---2532|3---0320|2---32--|0-00----|--0-2-3-|2---0---||--------|
|2---2---|2---1---|2---2-42|1-------|2-1-----|2---1---||2-------|
|--------|--------|2-------|----2-2-|2-------|--------||2-------|
|0-------|2-------|----2---|--------|0-------|0-------||0-------|
|----2---|----0---|2-------|0-------|--0-0-0-|----0---||--------|
Tap to rate this tab
# A B C D E F G H I J K L M N O P Q R S T U V W X Y Z