Song name
# A B C D E F G H I J K L M N O P Q R S T U V W X Y Z

Misc Christmas - Here Comes Santa Claus tab

			     Here comes santa claus                        Tabbed by:Jzag96
Email:J_music_96@yahoo.com

Tuning:Standard EADGBE

line 1

e|----0---------------0-----------1-1-0-1------------------------------------|
B|-------3-3-1----------3-3-1------------------------------------------------|
G|0--------------0--------------0--------------------------------------------|
D|---------------------------------------------------------------------------|
A|---------------------------------------------------------------------------|
E|---------------------------------------------------------------------------|


line 2

e|---1-1-0-------------1-0-------------3-3-2-3-------------------------------|
B|--------3-3---------------3-3----------------------------------------------|
G|0----------------0---------------0-----------------------------------------|
D|---------------------------------------------------------------------------|
A|---------------------------------------------------------------------------|
E|---------------------------------------------------------------------------|

line 3

e|------5-8-7-5--3--7-5-3-1-1-5-3-1-0----------------------------------------|
B|---------------------------------------------------------------------------|
G|---------------------------------------------------------------------------|
D|---------------------------------------------------------------------------|
A|---------------------------------------------------------------------------|
E|---------------------------------------------------------------------------|

line 4

e|----5-8-7-5-3-5-3-0-3-1-0----------------------------------------------------|
B|--------------------------3-1------------------------------------------------|
G|-----------------------------------------------------------------------------|
D|-----------------------------------------------------------------------------|
A|-----------------------------------------------------------------------------|
E|-----------------------------------------------------------------------------|

| /  slide up
| \  slide down
| h  hammer-on
| p  pull-off
| ~  vibrato
| +  harmonic
| x  Mute note
===============================================================================
Tap to rate this tab
# A B C D E F G H I J K L M N O P Q R S T U V W X Y Z