Song name
# A B C D E F G H I J K L M N O P Q R S T U V W X Y Z

Misc Christmas - Stay Awake tab

E|--------X-X--------X-X--------------------------X-X-------X-X-------------|
B|--------X-X--------XX--------1-----------------X-X-------X-X--1---------|
G|--------X-X-2-0----X-X---0-2-3--3-2-0-2-3-------X-X-2-0--X-X-----3-2-0---|
D|-----3--X-X-----3--XX--3--------------------3--X-X-----3-X-X-----------3-|
A|-3-3----X-X--------X-X-3------------------3-3--X-X-------X-X-3-----------|
E|--------X-X--------X-X--------------------------X-X-------X-X-------------|



E|------------------------------|
B|---------------------1--------|
G|------0--0-0-2---------3-2-0--|
D|--3-3-----------3--3---------3|
A|-------3----------------------|
E|------------------------------|


Stay awake, be ready.
		
You do not know the hour when the Lord is coming.

Stay awake, be ready.

The Lord is coming soon!

Alleluia!  Alleluia!

The Lord is coming soon.
Tap to rate this tab
# A B C D E F G H I J K L M N O P Q R S T U V W X Y Z