Song name
# A B C D E F G H I J K L M N O P Q R S T U V W X Y Z

Misc Christmas - First Noel tab

E-------------------0-----------0----------0-----------|
A---------------2-4---4-2-0~2-4--4-2-0-2-4---0---------|
D-1-------1-2-4-----2-----------2----------2---2-1~----|   x2
G---4-2-4-----------------2~---------2-------2---------|
B-2-----------2--------------------------------3-2~----|
E-----0------------------------------------------------|

E---------------0-------0-2-2/4-2-0-----------0--------|
A-----------------4-2-4-------------4-2-0-2-4---0------|
D-1-------1-2-4-2-------2---2/4-2-2-----------2---2-1~-|
G---4-2-4-----------2-------------------2-------2------|
B-2-----------2-----------------------------------3-2~-|
E-----0------------------------------------------------|
Tap to rate this tab
 
# A B C D E F G H I J K L M N O P Q R S T U V W X Y Z