Song name
# A B C D E F G H I J K L M N O P Q R S T U V W X Y Z

Misc Christmas - Away In A Manger tab

Well... I didn't think any of the other tabs sounded good so I made one. Sounds really 
with heavy distortion. :)

E-15-15-13-12-12-------------------------------------------12-15----|
B---------------15-13-13-12----------------------15-12---13---------|
G--------------------------14-12--12-12-14-12-12-------14-----------|
D-------------------------------------------------------------------|
A-------------------------------------------------------------------|
E-------------------------------------------------------------------|

E-15-15-13-12-12----------------------13-12----12-------------------|
B---------------15-13-13-12-----------------15----15-13-15----12-13-|
G---------------------------14-12--12----------------------14-------|
D-------------------------------------------------------------------|
A-------------------------------------------------------------------|
E-------------------------------------------------------------------|
Tap to rate this tab
 
# A B C D E F G H I J K L M N O P Q R S T U V W X Y Z