Song name
# A B C D E F G H I J K L M N O P Q R S T U V W X Y Z

Misc Christmas - What Child Is This tab

--------------------------------------------------------------------------               
What Child Is This? - (Christmas)
----------------------------------------------------------------------------

Tabbed by:  Christmas Guy
Email:

Tuning: Standard

e|-------------------------------------------------------------------|
B|-------------------------------------------------------------------|
G|-------------------------------------------------------------------|
D|--2--5--7--9--10--9--7--4--0--2--4--4/5--2--2--1--2--2--4--1-------|
A|---------------------------------------------------------------2---|
E|-------------------------------------------------------------------|


e|---------------------------------------------------------------|
B|---------------------------------------------------------------|
G|--------------------------------------------------------------.|
D|--2--5--7--9--10--9--7--4--0--2--4--5--4--2--1-----1--2--2----.|
A|------------------------------------------------4--------------|
E|---------------------------------------------------------------|


e|---------------------------------------------------------|
B|---------------------------------------------------------|
G|---------------------------------------------------------|
D|--/12--12--11--9--7--4--0--2--4--5--2--2--1--2--4--1-----|
A|------------------------------------------------------2--|
E|---------------------------------------------------------|


e|---------------------------------------------------------|
B|---------------------------------------------------------|
G|---------------------------------------------------------|
D|--/12--12--11--9--7--4--0--2/4--5--4--2--1-----1--2--2---|
A|--------------------------------------------4------------|
E|---------------------------------------------------------|

Tap to rate this tab
 
# A B C D E F G H I J K L M N O P Q R S T U V W X Y Z