Song name
# A B C D E F G H I J K L M N O P Q R S T U V W X Y Z

Misc Christmas - It Came Upon A Midnight Clear tab

----------------------------------------------------------------------------
	     It Came Upon A Midnight Clear - (Christmas)
----------------------------------------------------------------------------

Tabbed by:  Christmas Guy
Email:

Tuning: Standard

e|-----3-----1-----------------|-----------------1--3--1--|
B|--------3-----4--1-----1-----|-----1--3--4--4-----------|
G|--3-----------------3-----3--|--3-----------------------|
D|-----------------------------|--------------------------|
A|-----------------------------|--------------------------|
E|-----------------------------|--------------------------|


e|-----3-----1-----------------|--------------------------|
B|--------3-----4--1-----1-----|-----1--1--3--1-----4-----|
G|--3-----------------3-----3--|--3--------------3--------|
D|-----------------------------|--------------------------|
A|-----------------------------|--------------------------|
E|-----------------------------|--------------------------|


e|--3--3-----------------------|--3--1--------------------|
B|--------------------1--3--4--|--------4--3--1--3--1-----|
G|--------0--0--2--4-----------|-----------------------3--|
D|-----------------------------|--------------------------|
A|-----------------------------|--------------------------|
E|-----------------------------|--------------------------|


e|-----3-----1-----------------|--------------------------|
B|--------3-----4--1-----1-----|-----1--1--3--1-----4-----|
G|--3-----------------3-----3--|--3--------------3--------|
D|-----------------------------|--------------------------|
A|-----------------------------|--------------------------|
E|-----------------------------|--------------------------|


Merry Christmas!
Tap to rate this tab
 
# A B C D E F G H I J K L M N O P Q R S T U V W X Y Z