Misc Christmas - God Rest Ye Merry Gentlemen tab

Key:

/=slide
__________________________

E|------------------------------------------------------------------|
B|------------------------------------------------------------------|
G|---------12-12-10--------------------10/12------------------------|X2
D|----9-9-----------12-11-9----9-11-12------------------------------|
A|--------------------------12--------------------------------------|
E|-0----------------------------------------------------------------|


E|--------------------10-12-----------------------------------------|
B|-----12-13-10-12-13-------12-10------------10-8-10-12-13-12-12-10-|
G|--------------------------------12-9-11-12------------------------|
D|------------------------------------------------------------------|
A|------------------------------------------------------------------|
E|------------------------------------------------------------------|


E|------------------------------------10-12-------------------------|
B|---------------------10--8-10-12-13-------12-10-------------------|
G|--12-11-9----12-11-9----------------------------12-11-9-----------|
D|------------------------------------------------------------------|
A|------------------------------------------------------------------|
E|---------------------------------------------------------0--------|
Tap to rate this tab
 
# A B C D E F G H I J K L M N O P Q R S T U V W X Y Z